S Tokio Hotel

Monsoon bass

Tokio Hotel

Album:Scream

Year:2007

tools GoTabs

Start AutoScroll Font Size Down Font Size Up

Find us on Facebook

chords tabs
bass
ukulele keyboards
drums
flute
harmonica
guitar pro
video
GoTabs

Monsoon

intro 
G|--------------------------------------------------------------------------| 
D|--------------------------------------------------------------------------| 
A|6-6-6-6-6-6-6-6-----------------------------------------------------------| 
E|-----------------7-7-7-7-7-7-7-6------------------------------------------| 

verse 
G|----------------------------------------------------------------------------| 
D|----------------------------------------------------------------------------| 
A|6-6-6-6-6-6-6-6-------------------------------------------------------------| 
E|----------------7-7-7-7-7-7-7-6---------------------------------------------| 
Chorus 1 
G|---------------------------------------------------------------------------| 
D|---------------------------------------------------------------------------| 
A|-2-2-2-2-2-2-2-2-4-4-4-4-4-4-4-4-6-6-6-6-6-6-6-6-4-4-4-4-4-4-4-4-----------| 
E|---------------------------------------------------------------------------| 

G|---------------------------------------------------------------------------| 
D|---------------------------------------------------------------------------| 
A|-2-2-2-2-2-2-2-2-4-4-4-4-4-4-4-4-----------------6-6-6-6-6-6-6-6-----------| 
E|---------------------------------6-6-6-6-6-6-6-6---------------------------| 

G|--------------------------------------------------------------------------| 
D|--------------------------------------------------------------------------| 
A|-2-2-2-2-2-2-2-2-4(hold)--------------------------------------------------| 
E|--------------------------------------------------------------------------| 
bridge ( hey!) 
G|--------------------------------------------------------------------------| 
D|-6-6-6-5-5-5-5------2-2-2-1-1-1-1-----------------------------------------| 
A|-5-5-5-5-5-5-5------2-2-2-2-2-2-2-----------------------------------------| 
E|--------------------------------------------------------------------------| 
guitar solo ( not acurrate) 
G|---------------------------------------------------------------------------| 
D|-2---4--2------------------------------------------------------------------| 
A|------------4--------------------------------------------------------------| 
E|---------------------------------------------------------------------------| 
  last Chorus 
G|--------------------------------------------------------------------------| 
D|-2-2-2-2-2-2-2-2-4-4-4-4-4-4-4-4-6-6-6-6-6-6-6-6-4-4-4-4-4-4-4-4----------| 
A|-2-2-2-2-2-2-2-2-4-4-4-4-4-4-4-4-6-6-6-6-6-6-6-6-4-4-4-4-4-4-4-4----------| 
E|--------------------------------------------------------------------------| 
and so on on the E6 note play A6 and E6 chord 

intro X 4 
verse X 4 
Chorus 1 X1 
verse X 4 
bridge X 8 
guitar solo X 3 
last ChorusX 1 
bridge until end 

| /  slide up 
| \  slide down 
| h  hammer-on 
| p  pull-off 
| ~  vibrato 
| +  harmonic 
| x  Mute note  
less
plus
Add to Songbook Print Version How to play lesson Submit videolesson
Click the best TAGS for this song:
None of them
Contributor: 1477Munk Correct

If you can not find the chords or tabs you want, look at our partner E-chords. If you are a premium member, you have total access to our video lessons.

If you find a wrong Bad To Me from Tokio Hotel, click the correct button above.

login/signup
my songbooks
my recent views
my submits