S Roupa Nova

Chuva de Prata tab

Roupa Nova

Album:Focus - O Essencial De Roupa Nova

Year:1999

tools GoTabs

Start AutoScroll Font Size Down Font Size Up

Find us on Facebook

chords
tabs
bass
ukulele keyboards
drums
flute
harmonica
guitar pro
video
GoTabs

Chuva de Prata

E||----------------------|--1--1-----1--1--------|----------------------| 
B||-------------------3--|-----------------------|-------------------1--| 
G||-------------3--------|-----------------------|-------------2--------| 
D||----------3-----------|-----------------------|----------2-----------| 
A||----------------------|-----------------------|----------------------| 
E||----------------------|-----------------------|----------------------| 
 
 
                                                                    
--0-----1---------------|------------------|----------------------| 
-----------3------1-----|------------------|----------------------| 
---------------------1--|------------------|----------0--------0--| 
------------------------|------------------|-------------3--2-----| 
------------------------|------------------|----------------------| 
------------------------|------------------|----------------------| 
 
 
                                                                   
-------------------|------------------|-----------------------0--| 
-------------------|------------------|--1--1-----1--1--3--------| 
-------------------|------------------|--------------------------| 
--3----------------|------------------|--------------------------| 
-------------------|------------------|--------------------------| 
-------------------|------------------|--------------------------| 
 
 
                                                                              
-----------------------|--------------------------|-------------------------| 
--1--1-----1--1--------|--1--1-----1--1--3-----4--|-------------------------| 
-----------------------|--------------------------|--5--5-----5--5----------| 
-----------------------|--------------------------|-------------------------| 
-----------------------|--------------------------|----------------------5--| 
-----------------------|--------------------------|-------------------------| 
 
 
                                                                        
--------------------------|-----------------------|-------------------| 
--------------------------|-----------------------|-------------------| 
--------------------------|--1--------0--------0--|--2----------------| 
--5--5-----5--3-----2--3--|--------------3--2-----|-------------------| 
--------------------------|-----------------------|-------------------| 
--------------------------|-----------------------|-------------------| 
 
 
                                                                       
------------------|-----------------------0--|-----------------------| 
------------------|--1--1-----1--1--3--------|--1--1-----1--1--------| 
------------------|--------------------------|-----------------------| 
------------------|--------------------------|-----------------------| 
------------------|--------------------------|-----------------------| 
------------------|--------------------------|-----------------------| 
 
 
                                                                                 
--------------------------|-------------------------|--------------------------| 
--1--1-----1--1--3-----4--|-------------------------|--------------------------| 
--------------------------|--5--5-----5--5----------|--------------------------| 
--------------------------|-------------------------|--5--5-----5--3-----2--3--| 
--------------------------|----------------------5--|--------------------------| 
--------------------------|-------------------------|--------------------------| 
 
 
                                                                
-----------------------|-------------------|------------------| 
-----------------------|-------------------|------------------| 
--1--------0--------0--|-------------------|------------------| 
--------------3--2-----|--3----------------|------------------| 
-----------------------|-------------------|------------------| 
-----------------------|-------------------|------------------| 
 
 
                                                                          
----------------------|--------------------------|----------------------| 
---------1--1------1--|--3-----1--1--------------|----------------------| 
------2---------------|-----------------2-----0--|--0------2-0----------| 
----------------------|--------------------------|-------------3--------| 
----------------------|--------------------------|----------------------| 
----------------------|--------------------------|----------------------| 
 
 
                                                                      
---------------------|----------------------|-----------------------| 
---------------------|----------------------|-----------------3--1--| 
------------2-----0--|--0-----2-------------|-----------------------| 
---------------------|-----------3----------|--------0--------------| 
---------------------|----------------------|-----------3-----------| 
---------------------|----------------------|-----------------------| 
 
 
                                                                  
----------------------|------------------|----------------------| 
--1-------------------|------------------|---------1--1------1--| 
--------2--0----------|------------------|------2---------------| 
----------------------|------------------|----------------------| 
----------------------|------------------|----------------------| 
----------------------|------------------|----------------------| 
 
 
                                                                         
--------------------------|----------------------|---------------------| 
--3-----1--1--------------|----------------------|---------------------| 
-----------------2-----0--|--0------2-0----------|------------2-----0--| 
--------------------------|-------------3--------|---------------------| 
--------------------------|----------------------|---------------------| 
--------------------------|----------------------|---------------------| 
 
 
                                                                  
---------------------|----------------------|-------------------| 
---------------------|----------------------|-------------------| 
--0-----2------------|----------1--0-----0--|-------------------| 
---------------------|----------------3-----|--3----------------| 
---------------------|----------------------|-------------------| 
---------------------|----------------------|-------------------| 
 
 
                                                                       
------------------|-----------------------0--|-----------------------| 
------------------|--1--1-----1--1--3--------|--1--1-----1--1--------| 
------------------|--------------------------|-----------------------| 
------------------|--------------------------|-----------------------| 
------------------|--------------------------|-----------------------| 
------------------|--------------------------|-----------------------| 
 
 
                                                                             
--------------------------|---------------------|-----------------0--1--3--| 
--1--1-----1--1--3-----4--|---------------------|-----------1--3-----------| 
--------------------------|--5------------3--2--|--0--2--3-----------------| 
--------------------------|---------------------|--------------------------| 
--------------------------|---------------------|--------------------------| 
--------------------------|---------------------|--------------------------| 
 
 
                                                                     
--4--------3--1--0--3--|--5----------------|----8--6-----5--3------| 
-----------------------|-------------------|-----------------------| 
-----------------------|-------------------|-----------------------| 
-----------------------|-------------------|-----------------------| 
-----------------------|-------------------|-----------------------| 
-----------------------|-------------------|-----------------------| 
 
 
                                                                   
-------------------|------------------|--------------------------| 
-------------------|------------------|--------------------------| 
-------------------|------------------|--0--0-----0--------------| 
--3----------------|------------------|--------------3-----2--3--| 
-------------------|------------------|--------------------------| 
-------------------|------------------|--------------------------| 
 
 
                                                                
-----------------------|-------------------|------------------| 
-----------------------|-------------------|------------------| 
--1--------0--------0--|--2----------------|------------------| 
--------------3--2-----|-------------------|------------------| 
-----------------------|-------------------|------------------| 
-----------------------|-------------------|------------------| 
 
 
                                                                        
--------------------------|-----------------------|-------------------| 
--------------------------|-----------------------|-------------------| 
--0--0-----0--------------|--1--------0--------0--|-------------------| 
--------------3-----2--3--|--------------3--2-----|--3----------------| 
--------------------------|-----------------------|-------------------| 
--------------------------|-----------------------|-------------------| 
 
 
                                         
------------------|-------------------|| 
------------------|--1----------------|| 
------------------|--2----------------|| 
------------------|-------------------|| 
------------------|-------------------|| 
------------------|-------------------|| 
 
less
plus
Add to Songbook Print Version How to play lesson Submit videolesson
Click the best TAGS for this song:
None of them
Contributor: ericecow Correct

If you can not find the chords or tabs you want, look at our partner E-chords. If you are a premium member, you have total access to our video lessons.

If you find a wrong Bad To Me from Roupa Nova, click the correct button above.

login/signup
my songbooks
my recent views
my submits