chords
tabs
bass
ukulele keyboards
drums
flute
harmonica
guitar pro
video
GoTabs

Shot Puno

juan karlos - Shot Puno (Official Music Video)
https://www.youtube.com/watch?v=sOXXnbS8jmQ&ab_channel=JuanKarlosLabajoVEVO

add me on
twit and ig: @kimmatias6


Tabs for Intro and Verse:

e|------------|-------------|-------------|
B|------------|-------------|-------------|
G|--------0---|---------0---|---------0---|
D|------4-----|-------4-----|-------4-----|
A|----2-------|-----0-------|-----2-------|
E|-3----------|--2----------|--0----------|
     Gmaj7          F#m            Em

e|---------------|-------------|-------------|
B|---------------|-------------|-------0-----|
G|-----------0---|-------0-----|-----0-------|
D|-------0h2-----|---0h4-------|-------------|
A|-0-2-3---------|-5-----------|---2---------|
E|---------------|-------------|-3-----------|
        C               D             G

e|------------|
B|------------|
G|--------0---|
D|------3-----|
A|----2-------|
E|--3---------|
       G7


tabs for chorus:

e|-------------|-------------|-------------|------------|
B|----------0--|----------0--|--------0----|------------|
G|--------0----|--------0----|------0------|--------0---|
D|----0h2------|----0h4------|-------------|------3-----|
A|--3----------|--5----------|----2--------|----2-------|
E|-------------|-------------|--3----------|--3---------|
       C              D             G            G7

tabs for post-chorus:

e|-------------|-------------|------------|
B|-------------|-------------|------------|
G|--------0----|--------0----|------0-----|
D|----0h2------|----0h4------|----4-------|
A|--3----------|--5----------|--5---------|
E|-------------|-------------|------------|
        C             D           Dmaj7

chords for refrain:

e|----3----|----0----|
B|----3----|----3----|
G|----0----|----0----|
D|----0----|----2----|
A|----2----|----3----|
E|----3----|----x----|
      G         C


Intro

Gmaj7  F#m  Em
      C   D   G
Mmh, mmh, mmh-mmh

Gmaj7  F#m  Em
         C     D     G
Na-na-na-na-na-na-na-na


Verse 1
       Gmaj7  F#m      Em    
Sa karagatan  ng  mga  tao,
 C           D    G
ikaw ang nakikita ko
Gmaj7   F#m      Em    
Sa mga labing aking nahalikan,
      C  D      G
hanap ko ang sa'yo
      Gmaj7  F#m        Em        C        D          G
Kapaligiran ay sobrang ingay, at boses mo ang siyang lunas
  Gmaj7          F#m       Em                  C        D          G     G7 G7
Sa sobrang daming hita na aking nakikita, hanap ko ang maong mong butas


Chorus
C               D           G      G7
Sabi nila, kung tayo man ay tayo
       C                    D                    G           G7
'Di na kita pipilitin, kasi baka ikaw sa akin ay mas lumayo
          C               D                              G
Ikaw ang aking buwan, at alam mo bang ikaw rin ang mundo ko? Mmh-mmh


Post-Chorus
        C   C C   C        D    D D
Oh, minahal kita, sa gusto kong paraan
D        C   C C   C                Dmaj7
Mmh, minahal kita, nang 'di mo kailangan


Verse 2
        Gmaj7  F#m            Em    
Alam mo bang ikaw ang siyang hangin
      C         D              G
Na nagdadala sa akin sa dalampasigan
     Gmaj7         F#m      Em                         C        D     G
Sa'n man sa sanlibutan,     ikaw ang buhangin na aking laging binabalikan


Chorus
 G7            C                           D                           G             G7
(Shit) Nu'ng sinabi mo sa akin, na baka sa buhay natin, tayo'y di para sa isa't-isa
        C               C                 D                         G
Ginusto kong lumipat sa susunod na habang buhay, at du'n na tayo magkita
        C                       D                      G
'Wag mo sanang kalimutan, na sa puso ko ay laging nandyan ka, mmh-mmh


Post-Chorus
      C                D    
Nakikita kita sa kinabukasan ko
  D    C                               Dmaj7
Kahit 'di mo ako makita sa kinabukasan mo


refrain

Kaya, pobla
 G     G      C   C
Shot, shot, puno, pobla
 G     G      C   C
Shot, shot, puno, pobla
 G     G      C   C
Shot, shot, puno, pobla
 G     G      C   C
Shot, shot, puno, pobla

 G     G      C   C
Shot, shot, puno, pobla
 G     G      C   C       G    G   C C
Shot, shot, puno, pobla, oh-oh-oh-oh-oh
         G     G        C     C
No-no-no-no-no (woah!), puno, pobla!
 G     G      C   C
Shot, shot, puno, pobla
 G     G      C   C
Shot, shot, puno, pobla
 G     G       C    C       G G C C
Pobla, puno, napupuno, napupuno, ang-
                  G     G      C
Oh-oh-oh, pobla, shot, shot, puno
 G     G      C      C
Pobla, shot, shot, puno
 G     G      C      C
Pobla, shot, shot, puno


Outro

Gmaj7  F#m  Em    
C  D  G

Gmaj7  F#m  Em    
C  D  G



************************************

| h  Hammer-on
| x  Dead note

************************************
less
plus
Add to Songbook Print Version How to play lesson Submit videolesson
Click the best TAGS for this song:
None of them
Contributor: Anonymous Correct

If you can not find the chords or tabs you want, look at our partner E-chords. If you are a premium member, you have total access to our video lessons.

If you find a wrong Bad To Me from Juan Karlos Labajo, click the correct button above.

login/signup
my songbooks
my recent views
my submits