S Jay-Z

Empire State Of Mind bass

Jay-Z

tools GoTabs

Start AutoScroll Font Size Down Font Size Up

Find us on Facebook

chords
tabs
bass
ukulele keyboards
drums
flute
harmonica
guitar pro video
GoTabs

Empire State Of Mind

Empire State of Mind. By Jay-Z and Alicia Keys.

The below is the bass tab. Probably the best way to do the voicing to lead into the 
If you want to play the tune on guitar just build the appropriate Maj/min chord forms over 
roots.

Verse
|------------------------------------------------------------------------------|
|------------------------------------------------------------------------------|
|-----------9-----9-8-------------9-X3---9-11-13-13-13-13-(etc)-------------|
|----9-9-11-----------7------7-9---------------------------------------------|

Chorus
|-----------------------------------------------------------------------------|
|-----------------------------4-3--------------------------------------------|
|---2-----2-2-----------4---------2--x2-----2-2-4-9--------------------------|
|-------------------2--------------------------------------------------------|

Bridge
|-------------------------------------------------------------------------------|
|-------------------------------------------------------------------------------|
|-------------------------------------------------------------------------------|
|----------7--------9-------11-----6 6-6-6-6-6 (etc)----------------------------|


Tabbed by: Manick Bhan
less
plus
Add to Songbook Print Version How to play lesson Submit videolesson
Click the best TAGS for this song:
None of them
Contributor: noisjask Correct

If you can not find the chords or tabs you want, look at our partner E-chords. If you are a premium member, you have total access to our video lessons.

If you find a wrong Bad To Me from Jay-Z, click the correct button above.

login/signup
my songbooks
my recent views
my submits