S Def Leppard

Photograph bass

Def Leppard

Album:Pyromania

Year:1983

tools GoTabs

Start AutoScroll Font Size Down Font Size Up

Find us on Facebook

GoTabs

Photograph


THIS IS A COOL SONG. ITS PRETTY STRAIGHT FORWARD SO IT SHOULDNT BE TOO HARD TO LEARN.
VERSE:         "I SEE YOUR FACE EVERY TIME I DREAM..."
G--------------------------------------------------------------------------
D--------------------------------------------------------------------------
A--------------------------------------------------------------------------
E-12 12 12\--0000000000000-12-12-12\--000000000000-12-12-12\---------------

INTERLUDE PART:
G------------------
D---------7777777\-
A-22--00-----------
E------------------

PRE-CHORUS: "OH OH, LOOK WHAT YOU HAVE DONE..."
G----------------------------------------------------------------
D----------------------------------------------------------------
A-333---2-22---5-00---5-00---002-333---2-22---5-00---5-00---000--
E--------------------------3------------------------------3------

CHORUS: "(PHOTOGRAPH) I DONT WANT YOUR..."
G---------------------------------------
D---------------------------------------
A-22233333555777702223333377755550------
E---------------------------------------

PRE-SOLO PART:
G---------------------------------------------
D---------------------------------------------
A---------------------------------------------
E-0--0--0--00-10-10-10-0-12--12/20--20\-------

AT SOLO:
G-----------------------------------------------------------------------
D-----------------------------------------------------------------------
A-----------------------------------------------------------------------
E-0007777555555555-00077775555555-0007777555555555-000777755555/15-15\--

LAST CHORUS:                  "I GOTTA HAVE YOU"
G-----------------------------------------------------------------
D-----------------------------------------------------------------
A-2223333355577770--2223333\--------------------555555500077770---
E-----------------------------------------------------------------

THATS IT!!!
 
less
plus
Add to Songbook Print Version How to play lesson Submit videolesson
Click the best TAGS for this song:
None of them
Contributor: glipmagd Correct

If you can not find the chords or tabs you want, look at our partner E-chords. If you are a premium member, you have total access to our video lessons.

If you find a wrong Bad To Me from Def Leppard, click the correct button above.

login/signup
my songbooks
my recent views
my submits