S Coolio

Gangster's Paradise bass

Coolio

tools GoTabs

Start AutoScroll Font Size Down Font Size Up

Find us on Facebook

chords
tabs
bass
ukulele
keyboards
drums
flute
harmonica
guitar pro
video
GoTabs

Gangster's Paradise

part 1

g-----------------{--------------------
d-----------------{--------------------
a---------3---1---{---------3---66-5-3-
e-4--1--4--------4-{--3--1--3----------

part 2

g----------------{-------------------
d----------------{-------------------
a-------------3--{------------66-5-3-
e-4---1---3----3-{--4---1---3--------

The song goes....
Verse 1/ part 1
Verse 2/ part 2
2nd verse/ part 2
2nd chorus/ part 1

cool song hope this is wright have fun... from FleaY2K
 
less
plus
Add to Songbook Print Version How to play lesson Submit videolesson
Click the best TAGS for this song:
None of them
Contributor: peardlpi Correct

If you can not find the chords or tabs you want, look at our partner E-chords. If you are a premium member, you have total access to our video lessons.

If you find a wrong Bad To Me from Coolio, click the correct button above.

login/signup
my songbooks
my recent views
my submits